ISO-10303-21;
HEADER;
FILE_DESCRIPTION (( 'STEP AP203' ),
    '1' );
FILE_NAME ('QB-CTZHWP-10-780-M.STEP',
    '2020-12-24T01:34:12',
    ( '' ),
    ( '' ),
    'SwSTEP 2.0',
    'SolidWorks 2020',
    '' );
FILE_SCHEMA (( 'CONFIG_CONTROL_DESIGN' ));
ENDSEC;

DATA;
#1 = DIRECTION ( 'NONE',  ( 0.000000000000000000, 0.000000000000000000, 1.000000000000000000 ) ) ;
#2 = DIRECTION ( 'NONE',  ( 1.000000000000000000, 0.000000000000000000, 0.000000000000000000 ) ) ;
#3 = VECTOR ( 'NONE', #86, 1000.000000000000000 ) ;
#4 = DIRECTION ( 'NONE',  ( -1.000000000000000000, -0.000000000000000000, -0.000000000000000000 ) ) ;
#5 = CARTESIAN_POINT ( 'NONE',  ( -1.250000000000000222, 5.000000000000000000, 0.000000000000000000 ) ) ;
#6 = CARTESIAN_POINT ( 'NONE',  ( -1.614212418857619014, 0.000000000000000000, 5.000000000000000888 ) ) ;
#7 = EDGE_LOOP ( 'NONE', ( #327, #102, #245, #202 ) ) ;
#8 = DIRECTION ( 'NONE',  ( 0.000000000000000000, 0.000000000000000000, 1.000000000000000000 ) ) ;
#9 = LINE ( 'NONE', #117, #128 ) ;
#10 = APPROVAL_PERSON_ORGANIZATION ( #316, #258, #164 ) ;
#11 = VERTEX_POINT ( 'NONE', #333 ) ;
#12 = APPROVAL_ROLE ( '' ) ;
#13 = ORIENTED_EDGE ( 'NONE', *, *, #92, .T. ) ;
#14 = EDGE_CURVE ( 'NONE', #145, #11, #232, .T. ) ;
#15 = CARTESIAN_POINT ( 'NONE',  ( -1.614212418857619014, 0.000000000000000000, 0.000000000000000000 ) ) ;
#16 = AXIS2_PLACEMENT_3D ( 'NONE', #236, #152, #8 ) ;
#17 = CC_DESIGN_SECURITY_CLASSIFICATION ( #51, ( #246 ) ) ;
#18 = ORIENTED_EDGE ( 'NONE', *, *, #101, .T. ) ;
#19 = PERSON_AND_ORGANIZATION_ROLE ( 'classification_officer' ) ;
#20 = VERTEX_POINT ( 'NONE', #73 ) ;
#21 = CARTESIAN_POINT ( 'NONE',  ( -1.614212418857619014, 1.555301434917138433E-15, -12.69999999999999929 ) ) ;
#22 = ORIENTED_EDGE ( 'NONE', *, *, #196, .T. ) ;
#23 = AXIS2_PLACEMENT_3D ( 'NONE', #263, #108, #134 ) ;
#24 = CC_DESIGN_PERSON_AND_ORGANIZATION_ASSIGNMENT ( #235, #208, ( #107 ) ) ;
#25 = DIRECTION ( 'NONE',  ( 0.000000000000000000, 0.000000000000000000, -1.000000000000000000 ) ) ;
#26 = CIRCLE ( 'NONE', #173, 5.000000000000000000 ) ;
#27 = CC_DESIGN_PERSON_AND_ORGANIZATION_ASSIGNMENT ( #269, #119, ( #246 ) ) ;
#28 = CARTESIAN_POINT ( 'NONE',  ( 1.250000000000000444, 6.123233995736766282E-16, -5.000000000000000000 ) ) ;
#29 = FACE_BOUND ( 'NONE', #70, .T. ) ;
#30 = CYLINDRICAL_SURFACE ( 'NONE', #23, 5.000000000000000888 ) ;
#31 = DIRECTION ( 'NONE',  ( -1.000000000000000000, 0.000000000000000000, -0.000000000000000000 ) ) ;
#32 = CIRCLE ( 'NONE', #16, 5.000000000000000000 ) ;
#33 = CIRCLE ( 'NONE', #266, 12.69999999999999929 ) ;
#34 = DIRECTION ( 'NONE',  ( 0.000000000000000000, 0.000000000000000000, -1.000000000000000000 ) ) ;
#35 = CARTESIAN_POINT ( 'NONE',  ( 3.000000000000000000, 1.555301434917138433E-15, -12.69999999999999929 ) ) ;
#36 = MECHANICAL_CONTEXT ( 'NONE', #248, 'mechanical' ) ;
#37 = DIRECTION ( 'NONE',  ( 0.000000000000000000, 0.000000000000000000, 1.000000000000000000 ) ) ;
#38 = COORDINATED_UNIVERSAL_TIME_OFFSET ( 8, 0, .AHEAD. ) ;
#39 = APPROVAL_DATE_TIME ( #320, #258 ) ;
#40 = CIRCLE ( 'NONE', #178, 12.69999999999999929 ) ;
#41 = EDGE_CURVE ( 'NONE', #319, #129, #26, .T. ) ;
#42 = ORIENTED_EDGE ( 'NONE', *, *, #148, .F. ) ;
#43 = MANIFOLD_SOLID_BREP ( 'Ðý×', #322 ) ;
#44 = DIRECTION ( 'NONE',  ( -1.000000000000000000, -0.000000000000000000, -0.000000000000000000 ) ) ;
#45 = CALENDAR_DATE ( 2020, 24, 12 ) ;
#46 = DIRECTION ( 'NONE',  ( 0.000000000000000000, 0.000000000000000000, 1.000000000000000000 ) ) ;
#47 = LINE ( 'NONE', #21, #157 ) ;
#48 = CC_DESIGN_APPROVAL ( #109, ( #246 ) ) ;
#49 = APPROVAL ( #88, 'UNSPECIFIED' ) ;
#50 = PLANE ( 'NONE',  #174 ) ;
#51 = SECURITY_CLASSIFICATION ( '', '', #120 ) ;
#52 = CYLINDRICAL_SURFACE ( 'NONE', #332, 12.69999999999999929 ) ;
#53 = DESIGN_CONTEXT ( 'detailed design', #225, 'design' ) ;
#54 = DIRECTION ( 'NONE',  ( 0.000000000000000000, 0.000000000000000000, 1.000000000000000000 ) ) ;
#55 = DIRECTION ( 'NONE',  ( 0.000000000000000000, 0.000000000000000000, 1.000000000000000000 ) ) ;
#56 = DIRECTION ( 'NONE',  ( -1.000000000000000000, -0.000000000000000000, -0.000000000000000000 ) ) ;
#57 = EDGE_CURVE ( 'NONE', #214, #145, #228, .T. ) ;
#58 = CIRCLE ( 'NONE', #141, 12.69999999999999929 ) ;
#59 = CIRCLE ( 'NONE', #97, 5.000000000000000000 ) ;
#60 = CARTESIAN_POINT ( 'NONE',  ( -1.614212418857619014, 0.000000000000000000, 0.000000000000000000 ) ) ;
#61 = APPLICATION_PROTOCOL_DEFINITION ( 'international standard', 'config_control_design', 1994, #248 ) ;
#62 = EDGE_LOOP ( 'NONE', ( #302, #94 ) ) ;
#63 = DIRECTION ( 'NONE',  ( 0.000000000000000000, 0.000000000000000000, 1.000000000000000000 ) ) ;
#64 = ORIENTED_EDGE ( 'NONE', *, *, #165, .T. ) ;
#65 = CALENDAR_DATE ( 2020, 24, 12 ) ;
#66 = EDGE_CURVE ( 'NONE', #20, #220, #96, .T. ) ;
#67 = CC_DESIGN_PERSON_AND_ORGANIZATION_ASSIGNMENT ( #166, #19, ( #51 ) ) ;
#68 = EDGE_LOOP ( 'NONE', ( #172, #267, #64, #227 ) ) ;
#69 = CC_DESIGN_APPROVAL ( #49, ( #107 ) ) ;
#70 = EDGE_LOOP ( 'NONE', ( #167, #13 ) ) ;
#71 = EDGE_LOOP ( 'NONE', ( #297, #22 ) ) ;
#72 = VECTOR ( 'NONE', #81, 1000.000000000000000 ) ;
#73 = CARTESIAN_POINT ( 'NONE',  ( 3.000000000000000000, 0.000000000000000000, 5.000000000000001776 ) ) ;
#74 = ORIENTED_EDGE ( 'NONE', *, *, #57, .F. ) ;
#75 = EDGE_CURVE ( 'NONE', #229, #11, #47, .T. ) ;
#76 = EDGE_LOOP ( 'NONE', ( #90, #42 ) ) ;
#77 = ORGANIZATION ( 'UNSPECIFIED', 'UNSPECIFIED', '' ) ;
#78 = DIRECTION ( 'NONE',  ( 0.000000000000000000, 0.000000000000000000, 1.000000000000000000 ) ) ;
#79 = EDGE_CURVE ( 'NONE', #301, #114, #32, .T. ) ;
#80 = LOCAL_TIME ( 9, 34, 12.00000000000000000, #189 ) ;
#81 = DIRECTION ( 'NONE',  ( -1.000000000000000000, -0.000000000000000000, -0.000000000000000000 ) ) ;
#82 = CC_DESIGN_DATE_AND_TIME_ASSIGNMENT ( #218, #163, ( #51 ) ) ;
#83 = CALENDAR_DATE ( 2020, 24, 12 ) ;
#84 = CARTESIAN_POINT ( 'NONE',  ( -1.614212418857619014, 0.000000000000000000, 0.000000000000000000 ) ) ;
#85 = CARTESIAN_POINT ( 'NONE',  ( -1.250000000000000222, 0.000000000000000000, 0.000000000000000000 ) ) ;
#86 = DIRECTION ( 'NONE',  ( -1.000000000000000000, -0.000000000000000000, -0.000000000000000000 ) ) ;
#87 = CARTESIAN_POINT ( 'NONE',  ( -3.000000000000000000, 6.123233995736766282E-16, -5.000000000000000000 ) ) ;
#88 = APPROVAL_STATUS ( 'not_yet_approved' ) ;
#89 = CARTESIAN_POINT ( 'NONE',  ( 3.000000000000000000, 0.000000000000000000, 0.000000000000000000 ) ) ;
#90 = ORIENTED_EDGE ( 'NONE', *, *, #98, .F. ) ;
#91 = SHAPE_DEFINITION_REPRESENTATION ( #298, #296 ) ;
#92 = EDGE_CURVE ( 'NONE', #220, #20, #204, .T. ) ;
#93 = DIRECTION ( 'NONE',  ( 1.000000000000000000, 0.000000000000000000, 0.000000000000000000 ) ) ;
#94 = ORIENTED_EDGE ( 'NONE', *, *, #101, .F. ) ;
#95 = APPROVAL_STATUS ( 'not_yet_approved' ) ;
#96 = CIRCLE ( 'NONE', #276, 5.000000000000001776 ) ;
#97 = AXIS2_PLACEMENT_3D ( 'NONE', #186, #257, #55 ) ;
#98 = EDGE_CURVE ( 'NONE', #214, #229, #58, .T. ) ;
#99 = ORIENTED_EDGE ( 'NONE', *, *, #133, .T. ) ;
#100 = CARTESIAN_POINT ( 'NONE',  ( -3.000000000000000000, 0.000000000000000000, 0.000000000000000000 ) ) ;
#101 = EDGE_CURVE ( 'NONE', #129, #319, #288, .T. ) ;
#102 = ORIENTED_EDGE ( 'NONE', *, *, #242, .T. ) ;
#103 = CARTESIAN_POINT ( 'NONE',  ( -1.614212418857619014, 0.000000000000000000, 0.000000000000000000 ) ) ;
#104 = APPLICATION_PROTOCOL_DEFINITION ( 'international standard', 'config_control_design', 1994, #225 ) ;
#105 = DIRECTION ( 'NONE',  ( -0.000000000000000000, 0.000000000000000000, 1.000000000000000000 ) ) ;
#106 = CARTESIAN_POINT ( 'NONE',  ( 1.250000000000000222, 5.000000000000000000, 0.000000000000000000 ) ) ;
#107 = PRODUCT_DEFINITION ( 'UNKNOWN', '', #246, #53 ) ;
#108 = DIRECTION ( 'NONE',  ( -1.000000000000000000, -0.000000000000000000, -0.000000000000000000 ) ) ;
#109 = APPROVAL ( #226, 'UNSPECIFIED' ) ;
#110 = DIRECTION ( 'NONE',  ( 0.000000000000000000, 0.000000000000000000, -1.000000000000000000 ) ) ;
#111 = UNCERTAINTY_MEASURE_WITH_UNIT (LENGTH_MEASURE( 1.000000000000000082E-05 ), #130, 'distance_accuracy_value', 'NONE');
#112 = CARTESIAN_POINT ( 'NONE',  ( 3.000000000000000000, 6.123233995736768255E-16, -5.000000000000001776 ) ) ;
#113 = PERSON_AND_ORGANIZATION ( #268, #77 ) ;
#114 = VERTEX_POINT ( 'NONE', #285 ) ;
#115 = FACE_OUTER_BOUND ( 'NONE', #76, .T. ) ;
#116 = COORDINATED_UNIVERSAL_TIME_OFFSET ( 8, 0, .AHEAD. ) ;
#117 = CARTESIAN_POINT ( 'NONE',  ( -1.614212418857619014, 6.123233995736767268E-16, -5.000000000000000888 ) ) ;
#118 = EDGE_LOOP ( 'NONE', ( #203, #124, #99, #192 ) ) ;
#119 = PERSON_AND_ORGANIZATION_ROLE ( 'creator' ) ;
#120 = SECURITY_CLASSIFICATION_LEVEL ( 'unclassified' ) ;
#121 = ORIENTED_EDGE ( 'NONE', *, *, #148, .T. ) ;
#122 = LOCAL_TIME ( 9, 34, 12.00000000000000000, #116 ) ;
#123 = ADVANCED_FACE ( 'NONE', ( #256 ), #52, .T. ) ;
#124 = ORIENTED_EDGE ( 'NONE', *, *, #213, .T. ) ;
#125 = VERTEX_POINT ( 'NONE', #241 ) ;
#126 = DIRECTION ( 'NONE',  ( -1.000000000000000000, -0.000000000000000000, -0.000000000000000000 ) ) ;
#127 = ADVANCED_FACE ( 'NONE', ( #115, #29 ), #282, .F. ) ;
#128 = VECTOR ( 'NONE', #219, 1000.000000000000000 ) ;
#129 = VERTEX_POINT ( 'NONE', #87 ) ;
#130 =( LENGTH_UNIT ( ) NAMED_UNIT ( * ) SI_UNIT ( .MILLI., .METRE. ) );
#131 = CARTESIAN_POINT ( 'NONE',  ( -1.614212418857619014, 0.000000000000000000, 5.000000000000000888 ) ) ;
#132 = PERSON_AND_ORGANIZATION_ROLE ( 'design_owner' ) ;
#133 = EDGE_CURVE ( 'NONE', #217, #319, #161, .T. ) ;
#134 = DIRECTION ( 'NONE',  ( 0.000000000000000000, 0.000000000000000000, 1.000000000000000000 ) ) ;
#135 = AXIS2_PLACEMENT_3D ( 'NONE', #311, #289, #260 ) ;
#136 = CARTESIAN_POINT ( 'NONE',  ( -1.250000000000000222, 0.000000000000000000, 5.000000000000000888 ) ) ;
#137 = DIRECTION ( 'NONE',  ( -1.000000000000000000, -0.000000000000000000, -0.000000000000000000 ) ) ;
#138 = APPROVAL_ROLE ( '' ) ;
#139 = DIRECTION ( 'NONE',  ( 0.000000000000000000, 0.000000000000000000, 1.000000000000000000 ) ) ;
#140 = ORIENTED_EDGE ( 'NONE', *, *, #213, .F. ) ;
#141 = AXIS2_PLACEMENT_3D ( 'NONE', #190, #234, #310 ) ;
#142 = ORIENTED_EDGE ( 'NONE', *, *, #168, .F. ) ;
#143 = AXIS2_PLACEMENT_3D ( 'NONE', #89, #239, #139 ) ;
#144 = DIRECTION ( 'NONE',  ( -1.000000000000000000, -0.000000000000000000, -0.000000000000000000 ) ) ;
#145 = VERTEX_POINT ( 'NONE', #314 ) ;
#146 = ORIENTED_EDGE ( 'NONE', *, *, #75, .T. ) ;
#147 = APPROVAL_PERSON_ORGANIZATION ( #113, #49, #138 ) ;
#148 = EDGE_CURVE ( 'NONE', #229, #214, #40, .T. ) ;
#149 = FACE_OUTER_BOUND ( 'NONE', #71, .T. ) ;
#150 = AXIS2_PLACEMENT_3D ( 'NONE', #181, #93, #188 ) ;
#151 = FACE_OUTER_BOUND ( 'NONE', #223, .T. ) ;
#152 = DIRECTION ( 'NONE',  ( -1.000000000000000000, -0.000000000000000000, -0.000000000000000000 ) ) ;
#153 = FACE_OUTER_BOUND ( 'NONE', #275, .T. ) ;
#154 = FACE_OUTER_BOUND ( 'NONE', #7, .T. ) ;
#155 = FACE_BOUND ( 'NONE', #62, .T. ) ;
#156 = CARTESIAN_POINT ( 'NONE',  ( 3.000000000000000000, 12.69999999999999929, 0.000000000000000000 ) ) ;
#157 = VECTOR ( 'NONE', #126, 1000.000000000000000 ) ;
#158 = AXIS2_PLACEMENT_3D ( 'NONE', #103, #175, #286 ) ;
#159 = DIRECTION ( 'NONE',  ( -1.000000000000000000, -0.000000000000000000, -0.000000000000000000 ) ) ;
#160 = ORIENTED_EDGE ( 'NONE', *, *, #321, .T. ) ;
#161 = LINE ( 'NONE', #131, #272 ) ;
#162 = ORIENTED_EDGE ( 'NONE', *, *, #14, .F. ) ;
#163 = DATE_TIME_ROLE ( 'classification_date' ) ;
#164 = APPROVAL_ROLE ( '' ) ;
#165 = EDGE_CURVE ( 'NONE', #20, #114, #215, .T. ) ;
#166 = PERSON_AND_ORGANIZATION ( #268, #77 ) ;
#167 = ORIENTED_EDGE ( 'NONE', *, *, #66, .T. ) ;
#168 = EDGE_CURVE ( 'NONE', #217, #125, #277, .T. ) ;
#169 = PRODUCT_RELATED_PRODUCT_CATEGORY ( 'detail', '', ( #326 ) ) ;
#170 = DIRECTION ( 'NONE',  ( -1.000000000000000000, -0.000000000000000000, -0.000000000000000000 ) ) ;
#171 = EDGE_LOOP ( 'NONE', ( #243, #121, #199, #331 ) ) ;
#172 = ORIENTED_EDGE ( 'NONE', *, *, #242, .F. ) ;
#173 = AXIS2_PLACEMENT_3D ( 'NONE', #247, #144, #271 ) ;
#174 = AXIS2_PLACEMENT_3D ( 'NONE', #106, #31, #206 ) ;
#175 = DIRECTION ( 'NONE',  ( -1.000000000000000000, -0.000000000000000000, -0.000000000000000000 ) ) ;
#176 = DIRECTION ( 'NONE',  ( 1.000000000000000000, 0.000000000000000000, 0.000000000000000000 ) ) ;
#177 = ADVANCED_FACE ( 'NONE', ( #154 ), #30, .F. ) ;
#178 = AXIS2_PLACEMENT_3D ( 'NONE', #210, #307, #259 ) ;
#179 = AXIS2_PLACEMENT_3D ( 'NONE', #156, #212, #105 ) ;
#180 = DATE_AND_TIME ( #304, #80 ) ;
#181 = CARTESIAN_POINT ( 'NONE',  ( -1.250000000000000222, 0.000000000000000000, 0.000000000000000000 ) ) ;
#182 = DATE_AND_TIME ( #83, #300 ) ;
#183 = DIRECTION ( 'NONE',  ( -1.000000000000000000, -0.000000000000000000, -0.000000000000000000 ) ) ;
#184 = DIRECTION ( 'NONE',  ( 1.000000000000000000, 0.000000000000000000, 0.000000000000000000 ) ) ;
#185 = PERSON_AND_ORGANIZATION ( #268, #77 ) ;
#186 = CARTESIAN_POINT ( 'NONE',  ( 1.250000000000000444, 0.000000000000000000, 0.000000000000000000 ) ) ;
#187 = CC_DESIGN_PERSON_AND_ORGANIZATION_ASSIGNMENT ( #221, #244, ( #246 ) ) ;
#188 = DIRECTION ( 'NONE',  ( 0.000000000000000000, 0.000000000000000000, -1.000000000000000000 ) ) ;
#189 = COORDINATED_UNIVERSAL_TIME_OFFSET ( 8, 0, .AHEAD. ) ;
#190 = CARTESIAN_POINT ( 'NONE',  ( 3.000000000000000000, 0.000000000000000000, 0.000000000000000000 ) ) ;
#191 = PERSON_AND_ORGANIZATION ( #268, #77 ) ;
#192 = ORIENTED_EDGE ( 'NONE', *, *, #41, .T. ) ;
#193 = FACE_OUTER_BOUND ( 'NONE', #222, .T. ) ;
#194 = ORIENTED_EDGE ( 'NONE', *, *, #329, .F. ) ;
#195 = CALENDAR_DATE ( 2020, 24, 12 ) ;
#196 = EDGE_CURVE ( 'NONE', #11, #145, #33, .T. ) ;
#197 = APPROVAL_PERSON_ORGANIZATION ( #191, #109, #12 ) ;
#198 = CYLINDRICAL_SURFACE ( 'NONE', #280, 12.69999999999999929 ) ;
#199 = ORIENTED_EDGE ( 'NONE', *, *, #57, .T. ) ;
#200 = DIRECTION ( 'NONE',  ( -1.000000000000000000, -0.000000000000000000, -0.000000000000000000 ) ) ;
#201 = AXIS2_PLACEMENT_3D ( 'NONE', #85, #184, #34 ) ;
#202 = ORIENTED_EDGE ( 'NONE', *, *, #165, .F. ) ;
#203 = ORIENTED_EDGE ( 'NONE', *, *, #321, .F. ) ;
#204 = CIRCLE ( 'NONE', #143, 5.000000000000001776 ) ;
#205 = AXIS2_PLACEMENT_3D ( 'NONE', #253, #176, #25 ) ;
#206 = DIRECTION ( 'NONE',  ( -0.000000000000000000, 0.000000000000000000, 1.000000000000000000 ) ) ;
#207 =( GEOMETRIC_REPRESENTATION_CONTEXT ( 3 ) GLOBAL_UNCERTAINTY_ASSIGNED_CONTEXT ( ( #111 ) ) GLOBAL_UNIT_ASSIGNED_CONTEXT ( ( #130, #335, #255 ) ) REPRESENTATION_CONTEXT ( 'NONE', 'WORKASPACE' ) );
#208 = PERSON_AND_ORGANIZATION_ROLE ( 'creator' ) ;
#209 = FACE_OUTER_BOUND ( 'NONE', #118, .T. ) ;
#210 = CARTESIAN_POINT ( 'NONE',  ( 3.000000000000000000, 0.000000000000000000, 0.000000000000000000 ) ) ;
#211 = PLANE ( 'NONE',  #205 ) ;
#212 = DIRECTION ( 'NONE',  ( -1.000000000000000000, 0.000000000000000000, -0.000000000000000000 ) ) ;
#213 = EDGE_CURVE ( 'NONE', #125, #217, #295, .T. ) ;
#214 = VERTEX_POINT ( 'NONE', #264 ) ;
#215 = LINE ( 'NONE', #6, #72 ) ;
#216 = DATE_TIME_ROLE ( 'creation_date' ) ;
#217 = VERTEX_POINT ( 'NONE', #136 ) ;
#218 = DATE_AND_TIME ( #65, #262 ) ;
#219 = DIRECTION ( 'NONE',  ( -1.000000000000000000, -0.000000000000000000, -0.000000000000000000 ) ) ;
#220 = VERTEX_POINT ( 'NONE', #112 ) ;
#221 = PERSON_AND_ORGANIZATION ( #268, #77 ) ;
#222 = EDGE_LOOP ( 'NONE', ( #250, #146, #162, #74 ) ) ;
#223 = EDGE_LOOP ( 'NONE', ( #194, #230 ) ) ;
#224 = AXIS2_PLACEMENT_3D ( 'NONE', #292, #137, #37 ) ;
#225 = APPLICATION_CONTEXT ( 'configuration controlled 3d designs of mechanical parts and assemblies' ) ;
#226 = APPROVAL_STATUS ( 'not_yet_approved' ) ;
#227 = ORIENTED_EDGE ( 'NONE', *, *, #329, .T. ) ;
#228 = LINE ( 'NONE', #328, #303 ) ;
#229 = VERTEX_POINT ( 'NONE', #35 ) ;
#230 = ORIENTED_EDGE ( 'NONE', *, *, #79, .F. ) ;
#231 = ADVANCED_FACE ( 'NONE', ( #313 ), #287, .F. ) ;
#232 = CIRCLE ( 'NONE', #237, 12.69999999999999929 ) ;
#233 = LINE ( 'NONE', #312, #3 ) ;
#234 = DIRECTION ( 'NONE',  ( -1.000000000000000000, -0.000000000000000000, -0.000000000000000000 ) ) ;
#235 = PERSON_AND_ORGANIZATION ( #268, #77 ) ;
#236 = CARTESIAN_POINT ( 'NONE',  ( 1.250000000000000444, 0.000000000000000000, 0.000000000000000000 ) ) ;
#237 = AXIS2_PLACEMENT_3D ( 'NONE', #100, #249, #46 ) ;
#238 = PLANE ( 'NONE',  #305 ) ;
#239 = DIRECTION ( 'NONE',  ( -1.000000000000000000, -0.000000000000000000, -0.000000000000000000 ) ) ;
#240 = CARTESIAN_POINT ( 'NONE',  ( -3.000000000000000000, 0.000000000000000000, 0.000000000000000000 ) ) ;
#241 = CARTESIAN_POINT ( 'NONE',  ( -1.250000000000000222, 6.123233995736767268E-16, -5.000000000000000888 ) ) ;
#242 = EDGE_CURVE ( 'NONE', #220, #301, #9, .T. ) ;
#243 = ORIENTED_EDGE ( 'NONE', *, *, #75, .F. ) ;
#244 = PERSON_AND_ORGANIZATION_ROLE ( 'design_supplier' ) ;
#245 = ORIENTED_EDGE ( 'NONE', *, *, #79, .T. ) ;
#246 = PRODUCT_DEFINITION_FORMATION_WITH_SPECIFIED_SOURCE ( 'ANY', '', #326, .NOT_KNOWN. ) ;
#247 = CARTESIAN_POINT ( 'NONE',  ( -3.000000000000000000, 0.000000000000000000, 0.000000000000000000 ) ) ;
#248 = APPLICATION_CONTEXT ( 'configuration controlled 3d designs of mechanical parts and assemblies' ) ;
#249 = DIRECTION ( 'NONE',  ( -1.000000000000000000, -0.000000000000000000, -0.000000000000000000 ) ) ;
#250 = ORIENTED_EDGE ( 'NONE', *, *, #98, .T. ) ;
#251 = AXIS2_PLACEMENT_3D ( 'NONE', #84, #183, #78 ) ;
#252 = CC_DESIGN_PERSON_AND_ORGANIZATION_ASSIGNMENT ( #185, #132, ( #326 ) ) ;
#253 = CARTESIAN_POINT ( 'NONE',  ( -3.000000000000000000, 5.000000000000000000, 0.000000000000000000 ) ) ;
#254 = CC_DESIGN_APPROVAL ( #258, ( #51 ) ) ;
#255 =( NAMED_UNIT ( * ) SI_UNIT ( $, .STERADIAN. ) SOLID_ANGLE_UNIT ( ) );
#256 = FACE_OUTER_BOUND ( 'NONE', #171, .T. ) ;
#257 = DIRECTION ( 'NONE',  ( -1.000000000000000000, -0.000000000000000000, -0.000000000000000000 ) ) ;
#258 = APPROVAL ( #95, 'UNSPECIFIED' ) ;
#259 = DIRECTION ( 'NONE',  ( 0.000000000000000000, 0.000000000000000000, 1.000000000000000000 ) ) ;
#260 = DIRECTION ( 'NONE',  ( 1.000000000000000000, 0.000000000000000000, 0.000000000000000000 ) ) ;
#261 = CARTESIAN_POINT ( 'NONE',  ( -3.000000000000000000, 0.000000000000000000, 0.000000000000000000 ) ) ;
#262 = LOCAL_TIME ( 9, 34, 12.00000000000000000, #330 ) ;
#263 = CARTESIAN_POINT ( 'NONE',  ( -1.614212418857619014, 0.000000000000000000, 0.000000000000000000 ) ) ;
#264 = CARTESIAN_POINT ( 'NONE',  ( 3.000000000000000000, 0.000000000000000000, 12.69999999999999929 ) ) ;
#265 = ADVANCED_FACE ( 'NONE', ( #193 ), #198, .T. ) ;
#266 = AXIS2_PLACEMENT_3D ( 'NONE', #261, #317, #63 ) ;
#267 = ORIENTED_EDGE ( 'NONE', *, *, #66, .F. ) ;
#268 = PERSON ( 'UNSPECIFIED', 'UNSPECIFIED', 'UNSPECIFIED', ('UNSPECIFIED'), ('UNSPECIFIED'), ('UNSPECIFIED') ) ;
#269 = PERSON_AND_ORGANIZATION ( #268, #77 ) ;
#270 = ADVANCED_FACE ( 'NONE', ( #279 ), #238, .F. ) ;
#271 = DIRECTION ( 'NONE',  ( 0.000000000000000000, 0.000000000000000000, 1.000000000000000000 ) ) ;
#272 = VECTOR ( 'NONE', #159, 1000.000000000000000 ) ;
#273 = DIRECTION ( 'NONE',  ( 0.000000000000000000, 0.000000000000000000, 1.000000000000000000 ) ) ;
#274 = ADVANCED_FACE ( 'NONE', ( #151 ), #50, .F. ) ;
#275 = EDGE_LOOP ( 'NONE', ( #293, #160, #18, #315 ) ) ;
#276 = AXIS2_PLACEMENT_3D ( 'NONE', #299, #170, #273 ) ;
#277 = CIRCLE ( 'NONE', #150, 5.000000000000000888 ) ;
#278 = CYLINDRICAL_SURFACE ( 'NONE', #158, 5.000000000000000888 ) ;
#279 = FACE_OUTER_BOUND ( 'NONE', #290, .T. ) ;
#280 = AXIS2_PLACEMENT_3D ( 'NONE', #15, #44, #325 ) ;
#281 = APPROVAL_DATE_TIME ( #180, #49 ) ;
#282 = PLANE ( 'NONE',  #179 ) ;
#283 = ADVANCED_FACE ( 'NONE', ( #209 ), #309, .F. ) ;
#284 = CARTESIAN_POINT ( 'NONE',  ( -3.000000000000000000, 0.000000000000000000, 5.000000000000000000 ) ) ;
#285 = CARTESIAN_POINT ( 'NONE',  ( 1.250000000000000444, 0.000000000000000000, 5.000000000000000000 ) ) ;
#286 = DIRECTION ( 'NONE',  ( 0.000000000000000000, 0.000000000000000000, 1.000000000000000000 ) ) ;
#287 = CYLINDRICAL_SURFACE ( 'NONE', #224, 5.000000000000000888 ) ;
#288 = CIRCLE ( 'NONE', #334, 5.000000000000000000 ) ;
#289 = DIRECTION ( 'NONE',  ( 0.000000000000000000, 0.000000000000000000, 1.000000000000000000 ) ) ;
#290 = EDGE_LOOP ( 'NONE', ( #142, #140 ) ) ;
#291 = ADVANCED_FACE ( 'NONE', ( #153 ), #278, .F. ) ;
#292 = CARTESIAN_POINT ( 'NONE',  ( -1.614212418857619014, 0.000000000000000000, 0.000000000000000000 ) ) ;
#293 = ORIENTED_EDGE ( 'NONE', *, *, #168, .T. ) ;
#294 = APPROVAL_DATE_TIME ( #318, #109 ) ;
#295 = CIRCLE ( 'NONE', #201, 5.000000000000000888 ) ;
#296 = ADVANCED_BREP_SHAPE_REPRESENTATION ( 'QB-CTZHWP-10-780-M', ( #43, #135 ), #207 ) ;
#297 = ORIENTED_EDGE ( 'NONE', *, *, #14, .T. ) ;
#298 = PRODUCT_DEFINITION_SHAPE ( 'NONE', 'NONE',  #107 ) ;
#299 = CARTESIAN_POINT ( 'NONE',  ( 3.000000000000000000, 0.000000000000000000, 0.000000000000000000 ) ) ;
#300 = LOCAL_TIME ( 9, 34, 12.00000000000000000, #308 ) ;
#301 = VERTEX_POINT ( 'NONE', #28 ) ;
#302 = ORIENTED_EDGE ( 'NONE', *, *, #41, .F. ) ;
#303 = VECTOR ( 'NONE', #200, 1000.000000000000000 ) ;
#304 = CALENDAR_DATE ( 2020, 24, 12 ) ;
#305 = AXIS2_PLACEMENT_3D ( 'NONE', #5, #2, #110 ) ;
#306 = ADVANCED_FACE ( 'NONE', ( #155, #149 ), #211, .F. ) ;
#307 = DIRECTION ( 'NONE',  ( -1.000000000000000000, -0.000000000000000000, -0.000000000000000000 ) ) ;
#308 = COORDINATED_UNIVERSAL_TIME_OFFSET ( 8, 0, .AHEAD. ) ;
#309 = CYLINDRICAL_SURFACE ( 'NONE', #251, 5.000000000000000888 ) ;
#310 = DIRECTION ( 'NONE',  ( 0.000000000000000000, 0.000000000000000000, 1.000000000000000000 ) ) ;
#311 = CARTESIAN_POINT ( 'NONE',  ( 0.000000000000000000, 0.000000000000000000, 0.000000000000000000 ) ) ;
#312 = CARTESIAN_POINT ( 'NONE',  ( -1.614212418857619014, 6.123233995736767268E-16, -5.000000000000000888 ) ) ;
#313 = FACE_OUTER_BOUND ( 'NONE', #68, .T. ) ;
#314 = CARTESIAN_POINT ( 'NONE',  ( -3.000000000000000000, 0.000000000000000000, 12.69999999999999929 ) ) ;
#315 = ORIENTED_EDGE ( 'NONE', *, *, #133, .F. ) ;
#316 = PERSON_AND_ORGANIZATION ( #268, #77 ) ;
#317 = DIRECTION ( 'NONE',  ( -1.000000000000000000, -0.000000000000000000, -0.000000000000000000 ) ) ;
#318 = DATE_AND_TIME ( #45, #324 ) ;
#319 = VERTEX_POINT ( 'NONE', #284 ) ;
#320 = DATE_AND_TIME ( #195, #122 ) ;
#321 = EDGE_CURVE ( 'NONE', #125, #129, #233, .T. ) ;
#322 = CLOSED_SHELL ( 'NONE', ( #265, #291, #177, #274, #231, #283, #306, #123, #127, #270 ) ) ;
#323 = CC_DESIGN_DATE_AND_TIME_ASSIGNMENT ( #182, #216, ( #107 ) ) ;
#324 = LOCAL_TIME ( 9, 34, 12.00000000000000000, #38 ) ;
#325 = DIRECTION ( 'NONE',  ( 0.000000000000000000, 0.000000000000000000, 1.000000000000000000 ) ) ;
#326 = PRODUCT ( 'QB-CTZHWP-10-780-M', 'QB-CTZHWP-10-780-M', '', ( #36 ) ) ;
#327 = ORIENTED_EDGE ( 'NONE', *, *, #92, .F. ) ;
#328 = CARTESIAN_POINT ( 'NONE',  ( -1.614212418857619014, 0.000000000000000000, 12.69999999999999929 ) ) ;
#329 = EDGE_CURVE ( 'NONE', #114, #301, #59, .T. ) ;
#330 = COORDINATED_UNIVERSAL_TIME_OFFSET ( 8, 0, .AHEAD. ) ;
#331 = ORIENTED_EDGE ( 'NONE', *, *, #196, .F. ) ;
#332 = AXIS2_PLACEMENT_3D ( 'NONE', #60, #4, #1 ) ;
#333 = CARTESIAN_POINT ( 'NONE',  ( -3.000000000000000000, 1.555301434917138433E-15, -12.69999999999999929 ) ) ;
#334 = AXIS2_PLACEMENT_3D ( 'NONE', #240, #56, #54 ) ;
#335 =( NAMED_UNIT ( * ) PLANE_ANGLE_UNIT ( ) SI_UNIT ( $, .RADIAN. ) );
ENDSEC;
END-ISO-10303-21;
